Make your own free website on Tripod.com

Terrapin Station

Transcribed by Jeff Lewis


Grateful Dead:Terrapin Station
Source: Dozin' at the Knick

Intro. Rythm-Bob
Time(0:02)
E---------------------------0----------------------------------------- 
B-----1---1---1---1----1----0----1---3p2p0---------------------------- 
G-----2---2---2---2----2----2----2--------2--------------------------- 
D-----3-----------3---------3----------------------------------------- 
A--------------------------------------------------------------------- 
E--------------------------------------------------------------------- 

Jerry-Solo 1
Time(3:20)

E----------------------------12-13------------------------------------ 
B----------------12-13-15----------------12--------------------------- 
G---14p12-14------------------------12h14--14---12h14p12--12--------12 
D-------------------------------------------------------14-----12h14-- 
A--------------------------------------------------------------------- 
E--------------------------------------------------------------------- 


E--------------------------------------13---15-13------------------------- 
B-----12-----------------------13----13----------15-13------------------- 
G---14--14--12h14p12---------12----14---------------------------------- 
D-------------------------14----------------------------------------------- 
A--------------------------------------------------------------------------- 
E---------------------------------------------------------------------------- 


E-----------------------------------12-13-13------15-12------------------- 
B---12-12--13p12---12-13-15---13-15--------------------15-13-12------ 
G---------------14---------------------------------------------14-12-14---- 
D----------------------------------------------------------------------------- 
A----------------------------------------------------------------------------- 
E----------------------------------------------------------------------------- 

E-----------------------------------------------------------------12------------------ 
B--------------------------------------------------13p12--12-13-15--15p13p12---- 
G----12s14--12h14--14b14-12--------12--12h14------------14------------------14 
D----------------------------12h14---14------------**Play the above lick twice**--- 
A-------------------------------------------------------------------------------------- 
E-------------------------------------------------------------------------------------- 

Time(4:26)

E-------------------12----------------------------------------------------------- 
B---13p12---12-13-15---15p13p12-------------------------------------------- 
G--------14--------------------14----------------------------------------------- 
D-------------------------------------------------------------------------------- 
A-------------------------------------------------------------------------------- 
E-------------------------------------------------------------------------------- 

Jerry Solo 2
Time(4:50)

E--------------------12-12h13p12---------15------------------------------------- 
B---13p12---12-13-15------------15-12------15p15p12------12-13-----12-------12-- 
G--------14----------------------------------------14---------14-----14-12----14 
D------------------------------------------------------------------------------- 
A------------------------------------------------------------------------------- 
E------------------------------------------------------------------------------- 

E-----------------------------12---------------------------------------------- 
B---15p13p12----12-13p12-13-15------------15p13p12--12------------------------ 
G-----------14------------------------------------14--14---------------------- 
D----------------------------------------------------------------------------- 
A----------------------------------------------------------------------------- 
E--- ------------------------------------------------------------------------- 

Time(5:15)

E----------------------------------------------------------------------------- 
B--------------5----5--------------------------------------------------------- 
G--------4-5-----7------??3-5p3-3-5p3??--------------------------------------- 
D---7p6----------------------------------------------------------------------- 
A----------------------------------------------------------------------------- 
E--- ------------------------------------------------------------------------- 

Time(5:20) 

E----------------------------------------------------------------------------- 
B----------------------------------------------------------------------------- 
G---------------------0-1-3-1-0----------------------------------------------- 
D---------------0-2-0------------2-0-4-0-2-4-0-4-0-2-4-0---------------------- 
A---3--0h2h3------------------------------------------------------------------ 
E----------------------------------------------------------------------------- 

Time(5:52)

E--------------13-12----------------------------------------------------------- 
B---12-13-15----------12-13-15--12-13-15--12h13p12-12h13p12--12-13-15--12-13-15 
G------------------------------------------------------------------------------ 
D------------------------------------------------------------------------------ 
A------------------------------------------------------------------------------ 
E------------------------------------------------------------------------------ 


E----------------------------------------------------17-12-15--18-17-15----- 
B---12h13p12----12h13p12---12-13-15--12-12-15--15s17-------------------16h17 
G-----------14-------------------------------------------------------------- 
D--------------------------------------------------------------------------- 
A--------------------------------------------------------------------------- 
E--------------------------------------------------------------------------- 
.
E---15---------------10---------------------12s11---11---10------8---
B------17-16----13-----13-12-10--------------------------------------
G-------------------------------------11s12----------------10------9-
D--------------------------------------------------------------------
A--------------------------------------------------------------------
E--------------------------------------------------------------------



More to come!!

Return to Grateful Tab

Email: jslst9+@pitt.edu


Space for this web page is provided as a service to Tripod members. The contents of this page are the responsibility of its creator, not Tripod, Inc.
Click here to play cover story with Rolling Stone
Click here to play cover story with Rolling Stone
Tripod | ScreenLife | Planet Tripod | Search Member Pages | Homepage Builder