Make your own free website on Tripod.com
The allman brothers band
allman brothers~ soul serenade
Source : dreams box set
(disc 3 - song - 1)
Transcribed by Jeff Lewis
.

prepare to "hit the note", as the allman brothers have said. Duane's playing on this song is gut wrenching, and one of my favorite solos of all time. if you don't have the allman brothers' box setdreams, from which this song is taken, i suggest you get your hands on it.
.
the title of this song says it all . . .
soul serenade.
.
hope you like it.
enjoy ! ! !

.
Time~(9:13)
E-|--------------------------|--------12b14 12--------------|
B-|----10-12b14b12p10-12b14--|--10-10----------12b14-12-10--|
G-|--11----------------------|------------------------------|
D-|--------------------------|------------------------------|
A-|--------------------------|------------------------------|
E-|--------------------------|------------------------------|
.
E-|---------------------------------------------------------|
B-|----10-12b14b-hold-14b12p10-12b14-12p10------------------|
G-|--11------------------------------------11b12-9----------|
D-|---------------------------------------------------------|
A-|---------------------------------------------------------|
E-|---------------------------------------------------------|
.
E-|-------12b14-hold-14-12---------------------------------|
B-|----10------------------12b14-10h12-12b14b12-10--12b14--|
G-|--11----------------------------------------------------|
D-|--------------------------------------------------------|
A-|--------------------------------------------------------|
E-|--------------------------------------------------------|
.
E-|--------------------------------------------------|
B-|--------10-12b14-12-10----------------------------|
G-|--10h11----------------11b13-11-9-hold-and-fade---|
D-|--------------------------------------------------|
A-|--------------------------------------------------|
E-|--------------------------------------------------|
.                                                              A
E-|-----------------|------------|--------------------------|
B-|----------10-----|--12----10--|--------5-----------------|
G-|--9-10-11--------|-----11-----|--------6-----------------|
D-|-------------12--|------------|-----7--7-----------------|
A-|-----------------|------------|--7h9-----0-hold-and-fade-|
E-|-----------------|------------|--------------------------|
.
E-|----------------|--10-12---8h9-------|-----------|
B-|---------10-----|--------------10----|----10-----|
G-|-------9----11--|-----------------9--|--9----11--|
D-|--7s11----------|--------------------|-----------|
A-|----------------|--------------------|-----------|
E-|----------------|--------------------|-----------|
.
E-|--------------------|-----------|---------------|
B-|--------------------|--4b6-4-2--|---------------|
G-|--11b13-11b13-9-11--|-----------|------2-4b6-2--|
D-|--------------------|-----------|--2h4----------|
A-|--------------------|-----------|---------------|
E-|--------------------|-----------|---------------|
.          A  G  D
E-|--4s5--3--2--|
B-|--4s5--3--2--|
G-|--5s6--4--2--|
D-|-------------|
A-|-------------|
E-|-------------|
.
more to come !

Grateful Dead Tab
The Music of the Grateful Dead
.